Luke Cyca .com

Collarbone Bass Tab

Intro & Verses

1   2   3   4   1   2   3   4   1   2   3   4   1   2   3   4
G |----------------------------------------------------------------|
D |--------------1-------------------------------1-----------------|
A |3-3-------3-------------1-1--1--3-3-------3------------1--1--1--|
E |----------------------------------------------------------------|
1   2   3   4   1   2   3   4   1   2   3   4   1   2   3   4
G |----------------------------------------------------------------|
D |--------------------------------1-1-------1---3--------11---1---|
A |3-3-------3---1--------11-1--1----------------------------------|
E |----------------------------------------------------------------|

Chorus

1   2   3   4   1   2   3   4   1   2   3   4   1   2   3   4
G |----------------------------------------------------------------|
D |------------0-1---1-1-1-1-1-2-3---3-3-3-3-3---------------------|
A |3-3-3-3-3-3---------------------------------5-6---6-6-6-6\1-1-2-|
E |----------------------------------------------------------------|
1   2   3   4   1   2   3   4   1   2   3   4   1   2   3   4
G |----------------------------------------------------------------|
D |------------0-1---1-1-1-1-1-2-3---3-3-3-3-3---------------------|
A |3-3-3-3-3-3---------------------------------5-6---6-6-6-6\1-1-2-|
E |----------------------------------------------------------------|    

Later in the bridge, the rhythm simplifies like this...

1   2   3   4   1   2   3   4   1   2   3   4   1   2   3   4
G |----------------------------------------------------------------|
D |--------------0-1-1-1-1-1-1-1-2-3-3-3-3-3-3-3-------------------|
A |3-3-3-3-3-3-3---------------------------------6-6-6-6-6-6\1-1-1-|
E |----------------------------------------------------------------|
1   2   3   4   1   2   3   4   1   2   3   4   1   2   3   4
G |----------------------------------------------------------------|
D |--------------0-1-1-1-1-1-1-1-2-3-3-3-3-3-3-3-------------------|
A |3-3-3-3-3-3-3---------------------------------6-6-6-6-6-6\1-1-1-|
E |----------------------------------------------------------------|

Distribute freely with credit

comments powered by Disqus
Luke Cyca .com